Home       News    Download  Video    Links      Bio       Contact  

 
Get Thy Bearings
by Donovan
Em       F#m     Am          Em
Get your bearings, know your time.
Em        F#m  Am          Em
Don't you worry, weather's fine.
G       D/F#        Em       Bm
All the world knows what I'm saying,
G       D/F#        Em       Bm
All the world knows what I'm saying,
G         D/F#       Em
The world knows fine well.

Sax solo
It's just double bass and sax for a while 
but when the guitar comes back its just 
Em. Same for outro.

near the end play this
e|--------------|
b|--0h3-2-1-0---|
g|--0h4-3-2-0---|
d|--------------|
a|--------------|
e|--------------|

Get together, work it out,
Simplicity is what it's about.
All the world knows what I'm saying,
All the world knows what I'm saying,
The world knows fine well.

Outro
e|---------------------|
b|---------------------|
g|----0---0-0-0--0--0--|
d|-4s5-4s5--4-2--0--2--|
a|---------------------|
e|---------------------|
notes by Anonymous