Home       News    Download  Video    Links      Bio       Contact  

 
Eldorado
by Donovan
   [Em]
|---------------------------------------|---------------------------------------|
|--------0---0---0---0---0---0---0---0--|--------0---0---0---0---0---0---0---0--|
|----------0-------0-------0-------0----|----------0-------0-------0-------0----|
|--2/5-5-------4-------2-------2--------|--2/5-5-------7-------9-------9--------|
|---------------------------------------|---------------------------------------|
|---------------------------------------|---------------------------------------|
   Gaily       be -    dight ,             a   gal  -  lant    knight

   [Am]                                [Em]
|-----------------------------------|-----------------------------------|
|--------5-------5-------5-------5--|--------0-------0-------0-------0--|
|----5-------5-------5-------5------|----0-------0-------0-------0------|
|------7-------7-------7-------7----|------2-------2-------2-------2----|
|-----------------------------------|-----------------------------------|
|--5-------5-------5-------5--------|--0-------0-------0-------0--------|
In sunshine       and              in shadow

   [Am]                                [G*]
|-----------------------------------|-----------------------------------|
|--------5-------5-------5-------5--|--------0-------0-------0-------0--|
|----5-------5-------5-------5------|----4-------4-------4-------4------|
|------7-------7-------7-------7----|------5-------5-------5-------5----|
|-----------------------------------|-----------------------------------|
|--5-------5-------5-------5--------|--0-------0-------0-------0--------|
Did journey      long ,           singing      a      song

 [Em]
|---------------------------------------|
|--------0---0---0---0---0---0---0---0--|
|----------0-------0-------0-------0----|
|--2/5-5-------4-------2-------2--------|
|---------------------------------------|
|---------------------------------------|
  In  search   of      El 

 [Em]
|-----------------------------------|
|-----------------------------------|
|----0---0---0---0---0---0---0---0--|
|------2-------2-------2-------2----|
|--2--------------------------------|
|----------3-------2-------0--------|
 - Dorado


 Em
But he grew old this knight so bold
 Am                  Em
And o'er his heart a shadow
 Am                 G*
Fell as he found no spot of ground
                   Em
That looked like El Dorado 

 Em
Over the mountains of the moon
 Am                    Am
Down the valley of the shadow
 Am                   G*
Ride boldly ride the shade replied
                   Em
If you seek for El Dorado 

 Em
And as his strength failed him at length
 Am              Em
He met a pilgrim shadow
 Am                 G*
Shadow said he where can it be
                Em
This land of El Dorado 

 Em
Over the mountains of the moon
 Am                   Em
Down the valley of the shadow
 Am                  G*
Ride boldly ride the shade replied
                   Em
If you seek for El Dorado



---| Chords |-----------------------

  Em       Am      G*

 EADGBE  EADGBE  EADGBE
 022000  577555  055400
notes by Anonymous