Home       News    Download  Video    Links      Bio       Contact  

 
Evelasting Sea
by Donovan
[Capo 4th Fret]

Intro:
 Am
|---0-------|
|-----1-----|
|-------2---|
|---------2-|
|-0---------|
|-----------|

Verse:
 Fmaj7            Am            Fmaj7           Am
|--------0-----------------0--|--------0-----------------0--|
|-------1--1-------------1----|-------1--1-------------1----|
|-----2-----2----------2------|-----2-----2----------2------|
|---3---------3------2--------|---3---------3------2--------|
|-----------------0-----------|-----------------0-----------|
|-1---------------------------|-1---------------------------|

Pre-chorus:
 Am
|-------0--|
|-----1----|
|-2--------|
|---2------|
|----------|
|----------|

Chorus:
 F         Em       Am
|------------------|---------0--------|
|-------1-------0--|-------1---1------|
|-----2--------0---|-----2-------2----|
|---3--------2-----|---2------------2-|
|------------------|-0----------------|
|-1--------0-------|------------------|

 F         Em       Am
|------------------|---------0--------|
|-------1-------0--|-------1---1------|
|-----2--------0---|-----2-------2----|
|---3--------2-----|---2------------2-|
|------------------|-0----------------|
|-1--------0-------|------------------|


Fmaj7               Am  
I love you like the sea
Fmaj7               Am 
I love you like the sea
Am          
Everlasting 
F            Em       Am
Sea, everlasting sea, everlasting
F           Em       Am
Sea, everlasting sea,


I love you like the earth
I love you like the earth
Everrolling earth
Everrolling earth
Everrolling earth
Everrolling earth

I love you like the sun
I love you like the sun
Evershinning sun
Evershinning sun
Evershinning sun
Evershinning sun

I love you like the sea
I love you like the sea
Everlasting sea, everlasting sea



CHORD DIAGRAMS:
---------------

  Fmaj7    Em      Am            

 EADGBE  EADGBE  EADGBE
 133210  022000  x02210
notes by Brad Rock