Home       News    Download  Video    Links      Bio       Contact  

 
Jersey Thursday
by Donovan
{Capo: 3rd Fret} 

Intro:		
------	  x2		   x2		      x2	        x3       
												  
E||--8-8---8-8-8-8--|--8-8---8-8-8-8--|--8-8---8-8-8-8--|--8-8---8-8-8-8--|
B||--8-8---8-8-8-8--|--7-7---7-7-7-7--|--6-6---6-6-6-6--|--5-5---5-5-5-5--|
G||-----------------|-----------------|-----------------|-----------------| 
D||-----------------|-----------------|-----------------|-----------------|    
A||-----------------|-----------------|-----------------|-----------------| 
E||-----------------|-----------------|-----------------|-----------------|    
                                                                                                      
	x4   <-------Play each measure the corresponding amount of times
		     before moving to the next measure.
|--7-7---7-7-7-7--|                                                                           
|--5-5---5-5-5-5--|                                                                           
|-----------------|     
|-----------------|        
|-----------------|       
|-----------------|


Verse:
------

      Asus2           G
In the tiny piece of coloured glass 
             Am
my love was born 
                         G
And reds and golds and yellows 
                         Asus2
were the colours in the dawn 
                         G
Night brought on its purple cloak 
   G      D/F#    Em
of velvet to the sky 
          Am	           G
and the gulls were wheeling, spinning
           Asus2 
on Jersey Thursday


Bridge: strum
-------
           
E||--5---3---1---0-0-----|
B||--x---x---x---x-x-----|
G||--5---4---2---0-0-----| 
D||----------------------|    
A||----------------------|
E||----------------------|


Pre-verse:
----------

  Am  Asus2

Verse:
------

      Asus2           G
In the tiny piece of coloured glass 
             Am
my love was born 
                         G
And reds and golds and yellows 
                         Asus2
were the colours in the dawn 
                         G
Night brought on its purple cloak 
   G      D/F#    Em
of velvet to the sky 
          Am	           G
and the gulls were wheeling, spinning
           Asus2 
on Jersey Thursday


Outro:
------                                                       

E||--5--5-5-5--7--|--5-3-5-7--5--|--7-3-5-5-3--|--3-0-0-3-5-5-|--5-7-8--7h8\5--|
B||---------------|--------------|-------------|--------------|----------------|
G||---------------|--------------|-------------|--------------|----------------|
D||---------------|--------------|-------------|--------------|----------------|   
A||---------------|--------------|-------------|--------------|----------------| 
E||---------------|--------------|-------------|--------------|----------------|

                               fade...   

|--3--7-7--5---|--5-5-5--5--5-|--5-5-5----|
|--------------|--------------|-----------|
|--------------|--------------|-----------|
|--------------|--------------|-----------|   
|--------------|--------------|-----------| 
|--------------|--------------|-----------|


 Chords Diagrams:
 ----------------

 Asus2: 002200   
    Am: 002210
     G: 320003   
    Em: 022000  
notes by Brad Rock