Home       News    Download  Video    Links      Bio       Contact  

 
Candy Man
by Donovan
Video example can be seen here:
http://www.youtube.com/watch?v=NQUT09N8DKI

[Capo 3rd Fret]

(Original Key:Eb)

Intro/verse:
     
     C		      C		     G7		     C

    |-3-------------|-0-------------|-1-------------|-0-------------|
    |-1-------------|-1-------------|-0-------------|-1-------------|
    |-0--2--0--2-0--|-0-------------|-0-------------|-0-------------|
    |-2-------------|-2--3--2--3-2--|-0--2--0--2-0--|-2--3--2--3-2--|
    |-3-------------|-3-------------|-2-------------|-3-------------|
    |---------------|---------------|-3-------------|---------------|

     C		      C		     F	     C   Am    G  C  F   C

    |-3-------------|-0-------------|-1------0---0--|-----3--1---3--|
    |-1-------------|-1-------------|-1------1---1--|--0--1--1---1--|
    |-0--2--0--2-0--|-0-------------|-2------0---2--|--0--0--2---0--|
    |-2-------------|-2--3--2-------|-3------2---2--|--0--2--3---2--|
    |-3-------------|-3-------------|-3------3---0--|--2--3--3---3--|
    |---------------|----------3-2--|-1-------------|--3------------|



Candy man, he's been and gone

My Candy man, he's been and gone

My Candy man, he's been and gone.

Now I love everything in this Godalmighty world

God knows I do.


Peppermint stick got a little brass band
I got a peppermint stick I got a little brass band
I got a peppermint stick I got a little brass band
And I'm goin' down to the gate to score the Candy man stand.
Run fetch a pitcher get the baby some beer
Run fetch a pitcher get the baby some beer
Run fetch a pitcher get the baby some beer
Run fetch a pitcher get the baby some beer
Run fetch a pitcher get the baby some beer
Run fetch a pitcher get the baby some beer
'Cause I love everything in this Godalmighty world
God knows I do.

Candy man, he's been and gone
My Candy man and his name was John
My Candy man he's Morocco bound
Now I'd give everything in this Godalmighty world
To bring my Candy man home.

Black skin man give me some bad brew
Oh black skin man give me some bad brew
Oh black skin man give me some bad brew
Now I'd give everything in this Godalmighty world
To bring me my Candy man home.
Run fetch a pitcher get the baby some beer
Run fetch a pitcher get the baby some beer
Run fetch a pitcher get the baby some beer
Run fetch a pitcher get the baby some beer
Run fetch a pitcher get the baby some beer
Run fetch a pitcher get the baby some beer
'Cause I love everything in this Godalmighty world
God knows I do.

Candy man, I love the man,
Yeah the Candy man, he gets me high
My Candy man, yeah I love the man,
And I'd give everything in this Godalmighty world
To bring my Candy man home.


CHORD DIAGRAMS:
---------------

  C6      Csus4

 EADGBE  EADGBE
 x3x210  x33010
notes by Brad Rock