Home       News    Download  Video    Links      Bio       Contact  

 
Lazy Daze
by Donovan
[Capo: 1st Fret]

Intro:
         A
|-----0-0----0-0--|-----0-0----0-0--|-----0-0----0-0--|------------0-0--|
|-----2-2----2-2--|-----2-2----2-2--|-----0h2----2-2--|------------0h2--|
|-----2-2----2-2--|-----2-2----2-2--|-----2-2----2-2--|------------2-2--|
|-----2-2----2-2--|-----2-2----2-2--|-----2-2----2-2--|------------2-2--|   x2
|--0--------------|--0--------------|--0--------------|--2-0-2--0-------|
|----------0------|----------0------|----------0------|------0----------|


Verse: 

Looking for a place...
         A
|-----0-0----0-0--|-----0-0----0-0--|-----0-0----0-0--|---------0~~~----|
|-----2-2----2-2--|-----2-2----2-2--|-----2-2----2-2--|---------2~~~----|
|-----2-2----2-2--|-----2-2----2-2--|-----2-2----2-2--|---------2~~~----|
|-----2-2----2-2--|-----2-2----2-2--|-----2-2----2-2--|---------2~~~----|   x2
|--0--------------|--0--------------|--0--------------|--2-0----0~~~----|
|----------0------|----------0------|----------0------|------0----------|

           I'll be the boy...
 [walk up]          D
|---------|-----2-2----2-2--|-----2-2----2-2--|-----2-2----2-2--|-----------------|
|---------|-----3-3----3-3--|-----3-3----3-3--|-----3-3----3-3--|---0~~~----------|
|---------|-----2-2----2-2--|-----2-2----2-2--|-----2-2----2-2--|---1~~~----------|
|---------|--0--------------|--0--------------|---0-------------|---2~~~----------|
|--0-2-3--|----------0------|----------0------|----------0------|---2~~~----------|
|---------|-----------------|-----------------|-----------------|---0~~~----------|


 A
Looking for a place with a real lazy pace, 
Lay right back, simply rest my mind. 

 A
Living in a grass hut, swinging in a hammock, 
In some sleepy cove forgotten by time. 

 D
I'll be the boy who sings songs sometimes, 
Swim, sit in the sun and easy dream a while. 

 A
Don't need nothing that can't come tomorrow, 
It don't really matter if it never comes at all. 
Don't need nothing that can't come tomorrow, 
It don't really matter if it never comes at all. 

 A                  strum  --rest--     strum     --rest--
I don't want to be rushed and pushed and crushed and mushed. 
I don't want to be rushed and pushed and crushed and mushed. 

Don't need nothing that can't come tomorrow, 
It don't really matter if it never comes at all. 
Don't need nothing that can't come tomorrow, 
It don't really matter if it never comes at all. 

She is looking for a tan with a real sensitive man, 
Burn her bra, simply rest her jeans. 

Just let the kids run around with their ass hanging out, 
Barefoot like they do in her dreams. 

She'll be the girl who slinks along the beach, 
Swim, sit in the sun and easy dream a while. 

Don't need nothing that can't come tomorrow,
It don't really matter if it never comes at all. 
Don't need nothing that can't come tomorrow, 
It don't really matter if it never comes at all. 

I don't want to be rushed and pushed and crushed and mushed. 
I don't want to be rushed and pushed and crushed and mushed. 

Don't need nothing that can't come tomorrow, 
It don't really matter if it never comes at all. 
Don't need nothing that can't come tomorrow, 
It don't really matter if it never comes at all. 

Looking for a place with a lazy pace, 
It don't really matter if it never comes at all. 
Looking for a place with a lazy pace, 
It don't really matter if it never comes at all. 

Lazy Louisiana 
Lazy Louisiana 
Lazy Louisiana 
Find it anyhow. 

Lazy Louisiana 
Lazy Louisiana 
Lazy Louisiana 
Lazy Louisiana 
Oh, oh. 

I don't want to be rushed and pushed 
I don't want to be rushed and pushed 
Lazy Louisiana 

I don't want to be rushed and pushed 
I don't want to be rushed and pushed 
I don't want to be rushed and pushed 
I don't want to be rushed and pushed 
I don't want to be rushed and pushed

notes by Brad Rock