Home       News    Download  Video    Links      Bio       Contact  

 
Tangerine Puppet
by Donovan
[Capo 2nd Fret]

Strum:  x07500 

"This is the fairy story of the Tangerine Puppet"

 
e-|-0-------------------------------|-0------------|-------------|
B-|-----------0--------0-------0----|----------0---|-0-----------|
G-|------5--------5-------5---------|------5-------|---1--2------|
D-|----7--------7-------7-------7---|----7-------7-|-----------2-|
A-|-0------0--------0-------0-------|-0------0-----|-0-2--0------|
E-|---------------------------------|--------------|-------------| x4


e-|-0-----------------------------|-0-----------|--------------|
B-|-----------3--------3------0---|---------1---|-0h1------1---|
G-|-----0h2------0h2------0h2-----|-----2-------|------2-------|
D-|----3--------3--------3------3-|---2-------2-|----2-------2-|
A-|-0------0--------0-------0-----|-0-----0-----|-0------0-----|
E-|-------------------------------|-------------|--------------|

e-|-0-----------------------------|-0-----------|-0------------|
B-|-----------3--------3------0---|---------0---|-------3------|
G-|-----0h2------0h2------0h2-----|-----1-------|--------------|
D-|----3--------3--------3------3-|---2-------2-|----2-------2-|
A-|-0------0--------0-------0-----|-2-----2-----|-2-----2------|
E-|-------------------------------|-------------|--------------|

Play slight variation: 

e-|-0------------------------------|-8--------7---|-0-----------|
B-|-----------0--------0------0----|--------------|-------------|
G-|------5--------5-------5--------|------5-------|---1---2-----|
D-|----7--------7-------7------7---|----7-------7-|-----------2-|
A-|-0------0--------0------0-------|-0------0-----|-0-2--0------|
E-|--------------------------------|--------------|-------------|
notes by Justin Schwantes