Home       News    Download  Video    Links      Bio       Contact  

 
Two Lovers
by Donovan
 Intro/Chorus:

    ||----------|
    ||----------|
    ||----------|
    ||----------|                  
    ||----------|
    ||--0-h1-/2-|

      G                       F      C      G                       F      C
    |------------------|------------------|------------------|------------------|
    |------------------|------------------|------------------|------------------|
    |---0-5p4-0---5-4--|------------------|-----5p4-0---5-4--|------------------|
    |------------------|--0-h3---5-3-2----|---0--------------|---0-h3---5-3-2---|
    |------------------|------------------|------------------|------------------|
    |-3----------------|------------------|-3----------------|------------------|

      G                       F      C      G                       F      C
    |------------------|------------------|------------------|------------------|
    |------------------|------------------|------------------|------------------|
    |--0--5p4--0--5p4--|------------------|-----5p4-0---5-4--|------------------|
    |------------------|-0--3-5--3-5--3-5-|---0--------------|---0-3---5-3-2----|
    |------------------|------------------|------------------|------------------|
    |------------------|------------------|-3----------------|------------------|

    |------------------||
    |------------------||
    |------------------||
    |----3-2-0---------||
    |------------------||
    |------------------||


 Verse:

When two lovers touch hands 
They touch the two of them
Touching hands 
They touch the one of them
In the space between
As each the other hand doeth touch

When two lovers kiss lips
They kiss the two of them
Kissing lips 
They kiss the one of them 
Within the space between
As each the others lip doeth kiss 

 Chorus: 

Two lovers
Two lovers
Two lovers, two lovers
Two lovers

 Verse:

When two lovers hold eachother 
They hold the two of them
Holding eachother
They hold the one of them
In the space between 
As each the other holds

 chorus: 

Two lovers
Two lovers
Two lovers, two lovers
Two lovers
notes by Brad Rock