Home       News    Download  Video    Links      Bio       Contact  

 
Season Of The Witch
by Donovan
     Q    Q    E  S S S S E     Q    Q    E  S S S S E   
E||--------------------------|--------------------------|
B||-------x------------------|-------x-------3----------|
G||-------x-------2-0---0----|-------x-------2-0---0----|
D||--2----x-------2-0---0-2--|-------x-------0-0---0-0--|
A||--0----x---------------0--|-------x---------------0--|
E||--------------------------|--2-----------------------|


  Q    Q    E  S S S S E     Q    Q    E  S S S S E   
--------------------------|--------------------------|
-------x------------------|-------x-------3----------|
-------x-------2-0---0----|-------x-------2-0---0----|
--2----x-------2-0---0-2--|-------x-------0-0---0-0--|
--0----x---------------0--|-------x---------------0--|
--------------------------|--2-----------------------|

                       
GUITAR 2                             


  Q    Q    H           Q    Q    H           Q    Q    H         
---------------------|-------2----2--------|---------------------|
-------2----2--------|-------1----0--------|-------2----2--------|
-------2----0--------|-------2----2--------|-------2----0--------|
-------2----2--------|-------0----0--------|-------2----2--------|
-------0----0--------|---------------------|-------0----0--------|
---------------------|---------------------|---------------------|


  Q    Q    H           Q    Q    H           Q    Q    H         
-------2----2--------|---------------------|-------2----2--------|
-------1----0--------|-------2----2--------|-------1----0--------|
-------2----2--------|-------2----0--------|-------2----2--------|
-------0----0--------|-------2----2--------|-------0----0--------|
---------------------|-------0----0--------|---------------------|
---------------------|---------------------|---------------------|


  Q    Q    H           Q    Q    H           Q    Q    H         
---------------------|-------2----2--------|---------------------|
-------2----2--------|-------1----0--------|-------2----2--------|
-------2----0--------|-------2----2--------|-------2----0--------|
-------2----2--------|-------0----0--------|-------2----2--------|
-------0----0--------|---------------------|-------0----0--------|
---------------------|---------------------|---------------------|


  Q    Q    H           Q    Q    H           Q    Q    H         
------------0--------|---------------------|------------0--------|
-------3----0--------|-------2----2--------|-------3----0--------|
-------2----1--------|-------2----0--------|-------2----1--------|
-------0----2--------|-------2----2--------|-------0----2--------|
---------------------|-------0----0--------|---------------------|
---------------------|---------------------|---------------------|

                          Season of the witch                               

SOLO
  W                   W                   E  E   E  E  E   E  E  E    
-------------------|-------------------|---------5---------5---------|
-------------------|-------------------|-----------------------------|
-------------------|-------------------|--7--7b-----7--7b-----7--7b--|
-------------------|-------------------|-----------------------------|
-------------------|-------------------|-----------------------------|
-------------------|-------------------|-----------------------------|


  E  E   E  E   E  E   E  E      E   S S  S  S   E   E    E    E   E   
--5------5------5------5------|--------8-10-10b--L--10b--10br--8------|
------------------------------|-----10----------------------------10--|
-----7b-----7b-----7b-----7b--|---------------------------------------|
------------------------------|---------------------------------------|
------------------------------|---------------------------------------|
------------------------------|---------------------------------------|


    verse 2                                                           
    W                   Q    E  S S E  E  E  E     H        H         
|--------------------|-----------------------0--|--------------------|
|--------------------|----------3-1-0--1--3-----|--------------------|
|*-------------------|--------------------------|--2-----------------|
|*-------------------|--------------------------|--------------------|
|--------------------|--------------------------|--------------------|
|--------------------|--------------------------|--------------------|


  Q    E  S S E  E  E  E     H        H           Q    E  S S E  E  E  E   
-----------------------0--|--------------------|-----------------------0--|
----------3-1-0--1--3-----|--------------------|----------3-1-0--1--3-----|
--------------------------|--2-----------------|--------------------------|
--------------------------|--------------------|--------------------------|
--------------------------|--------------------|--------------------------|
--------------------------|--------------------|--------------------------|


  H        H           Q    E  S S E  E  E  E     H        H         
--------------------|-----------------------0--|--------------------|
--------------------|----------3-1-0--1--3-----|--------------------|
--2-----------------|--------------------------|--2-----------------|
--------------------|--------------------------|--------------------|
--------------------|--------------------------|--------------------|
--------------------|--------------------------|--------------------|


  Q    E  S S E  E  E  E     H        H           Q    E  S S E  E  E  E   
-----------------------0--|--------------------|--------------------------|
----------3-1-0--1--3-----|--------------------|----------3-1-0--4--3--1--|
--------------------------|--2-----------------|--------------------------|
--------------------------|--------------------|--------------------------|
--------------------------|--------------------|--------------------------|
--------------------------|--------------------|--------------------------|


  H        H           Q    E  S S E  E  E  E     H        H         
--------------------|--------------------------|--------------------|
--------------------|----------3-1-0--4--3--1--|--------------------|
--2-----------------|--------------------------|--2-----------------|
--------------------|--------------------------|--------------------|
--------------------|--------------------------|--------------------|
--------------------|--------------------------|--------------------|


  Q    E  S S E  E  E  E     H        H           Q    E  S S E  E  E  E   
--------------------------|--------------------|--------------------------|
----------3-1-0--4--3--1--|--------------------|----------3-1-0--4--3--1--|
--------------------------|--2-----------------|--------------------------|
--------------------------|--------------------|--------------------------|
--------------------------|--------------------|--------------------------|
--------------------------|--------------------|--------------------------|


  H        H           Q    E  S S E  E  E  E     H        H         
--------------------|--------------------------|--------------------|
--------------------|----------3-1-0--4--3--1--|--------------------|
--2-----------------|--------------------------|--2-----------------|
--------------------|--------------------------|--------------------|
--------------------|--------------------------|--------------------|
--------------------|--------------------------|--------------------|


  Q    E  S S E  E  E  E     H        H           E  E   E  E  E   E  E  E    
--------------------------|--------------------|---------5---------5---------|
----------3-1-0--4--3--1--|--------------------|--8--8b---------------8--8b--|
--------------------------|--2-----------------|------------7--7b------------|
--------------------------|--------------------|-----------------------------|
--------------------------|--------------------|-----------------------------|
--------------------------|--------------------|-----------------------------|


  E  E   E  E   E  E   Q         E    E    E    E    E    E    E    E   
--5------5------5------------|--10b--10b--10b--10b--10b--10b--10br--8--|
-----8b-----8b-----8b--8b----|-----------------------------------------|
-----------------------------|-----------------------------------------|
-----------------------------|-----------------------------------------|
-----------------------------|-----------------------------------------|
-----------------------------|-----------------------------------------|


                                                           SOLO              
  E  E  E   E  E  E   Q       E  E   E  E  E  E   E  E     W                 
--5---------5---------5----|----------------------------|-------------------|
---------------------------|--7--7b--7--5--7--7b--7--5--|-------------------|
-----7--7b-----7--7b-------|--7--7b--7--5--7--7b--7--5--|-------------------|
---------------------------|----------------------------|--7----------------|
---------------------------|----------------------------|-------------------|
---------------------------|----------------------------|-------------------|


  Q    E  S S E  E  E  E     H        H           Q    E  S S E  E  E  E   
-----------------------0--|--------------------|-----------------------0--|
----------3-1-0--1--3-----|--------------------|----------3-1-0--1--3-----|
--------------------------|--2-----------------|--------------------------|
--------------------------|--------------------|--------------------------|
--------------------------|--------------------|--------------------------|
--------------------------|--------------------|--------------------------|


  H        H           Q    E  S S E  E  E  E     H        H         
--------------------|-----------------------0--|--------------------|
--------------------|----------3-1-0--1--3-----|--------------------|
--2-----------------|--------------------------|--2-----------------|
--------------------|--------------------------|--------------------|
--------------------|--------------------------|--------------------|
--------------------|--------------------------|--------------------|


  Q    E  S S E  E  E  E     H        H           Q    E  S S E  E  E  E   
-----------------------0--|--------------------|-----------------------0--|
----------3-1-0--1--3-----|--------------------|----------3-1-0--1--3-----|
--------------------------|--2-----------------|--------------------------|
--------------------------|--------------------|--------------------------|
--------------------------|--------------------|--------------------------|
--------------------------|--------------------|--------------------------|


  H        H           Q    E  S S E  E  E  E     H        H         
--------------------|-----------------------0--|--------------------|
--------------------|----------3-1-0--1--3-----|--------------------|
--2-----------------|--------------------------|--2-----------------|
--------------------|--------------------------|--------------------|
--------------------|--------------------------|--------------------|
--------------------|--------------------------|--------------------|


  Q    E  S S E  E  E  E     H        H           Q    E  S S E  E  E  E   
-----------------------0--|--------------------|-----------------------0--|
----------3-1-0--1--3-----|--------------------|----------3-1-0--1--3-----|
--------------------------|--2-----------------|--------------------------|
--------------------------|--------------------|--------------------------|
--------------------------|--------------------|--------------------------|
--------------------------|--------------------|--------------------------|


  H        H           Q    E  S S E  E  E  E     H        H         
--------------------|-----------------------0--|--------------------|
--------------------|----------3-1-0--1--3-----|--------------------|
--2-----------------|--------------------------|--2-----------------|
--------------------|--------------------------|--------------------|
--------------------|--------------------------|--------------------|
--------------------|--------------------------|--------------------|


  Q    E  S S E  E  E  E     H        H           E  E   E  E  E   E  E  E    
-----------------------0--|--------------------|---------5---------5---------|
----------3-1-0--1--3-----|--------------------|--8--8b---------------8--8b--|
--------------------------|--2-----------------|------------7--7b------------|
--------------------------|--------------------|-----------------------------|
--------------------------|--------------------|-----------------------------|
--------------------------|--------------------|-----------------------------|


  E  E   E  E   E  E   Q         E    E    E    E    E    E    E    E   
--5------5------5------------|--10b--10b--10b--10b--10b--10b--10br--8--|
-----8b-----8b-----8b--8b----|-----------------------------------------|
-----------------------------|-----------------------------------------|
-----------------------------|-----------------------------------------|
-----------------------------|-----------------------------------------|
-----------------------------|-----------------------------------------|


  E  E  E   E  E  E   Q       E  E   E  E  E  E   E  E       W                 
--5---------5---------5----|-----------------------------||-------------------|
---------------------------|--7--7b--7--5--7--7b--7--5---||-------------------|
-----7--7b-----7--7b-------|--7--7b--7--5--7--7b--7--5--*||-------------------|
---------------------------|----------------------------*||-------------------|
---------------------------|-----------------------------||-------------------|
---------------------------|-----------------------------||-------------------|


  W                   W                   W                  
-------------------|-------------------|-------------------||
-------------------|-------------------|-------------------||
-------------------|-------------------|-------------------||
-------------------|-------------------|-------------------||
-------------------|-------------------|-------------------||
-------------------|-------------------|-------------------||


When I look out my window
Many sights to see
And when I look in my window
So many different people to be
That is strange
So strange
You got to pick up every stitch
You got to pick up every stitch
You got to pick up every stitch

Must be the season of the witch
Must be the season of the witch, yeah
Must be the season of the witch

A-when I look over my shoulder
What do you think I see?
Some other cat lookin' over
His shoulder at me
And he's strange
Sure is strange
You got to pick up every stich
You got to pick up every stitch, yeah
Beatnicks are out to make it rich

Oh, no, must be the season of the witch
Must be the season of the witch, yeah
Must be the season of the witch

You got to pick up every stitch
Two rabbits runnin' in the ditch
Beatnicks are out to make it rich

Oh, no, must be the season of the witch
Must be the season of the witch
Must be the season of the witch
Where I go

A-when I look out my window
What do you think I see?
And when I look in my window
So many different people to be
It's strange
Sure is strange
You got to pick up every stitch
You got to pick up every stitch
Two rabbits runnin' in the ditch

Oh, no, must be the season of the witch
Must be the season of the witch, yeah
Must be the season of the witch
Where I go
Where I go
notes by Achilles