Home       News    Download  Video    Links      Bio       Contact  

 
Love Will Find A Way
by Donovan
Intro:

   D       D/C#      Bm7     D/A       G       D/F#      Em      A
e |-----------------|-----------------|-----------------|-----------------|
B |-----3-------3---|-----3-------3---|-----3-------3---|-----0-------2---|
G |---2---2---2---2-|---2---2---2--2--|---0---0---0---0-|---0---0---2---2-|
D |-0---------------|-----------------|-----------------|-----------------|
A |---------4-------|-2-------0-------|-----------------|---------0-------|
E |-----------------|-----------------|-3-------2-------|-0---------------|
   1 u 2 u 3 u 4 u   1 u 2 u 3 u 4 u   1 u 2 u 3 u 4 u   1 u 2 u 3 u 4 u

   G       D/F#      Em                A       A/G       D/F#
e |-----------------|---------0-------|-----------------|-----------------|
B |-----3-------3---|-----0-------0---|-----2-------2---|-----3---2---3---|
G |---0---0---0---0-|---0---0---0---0-|---2---2---2---2-|---2---2---2---2-|
D |-----------------|-----------------|-----------------|-----------------|
A |-----------------|-----------------|-0---------------|-----------------|
E |-3-------2-------|-0---------------|---------3-------|-2---------------|
   1 u 2 u 3 u 4 u   1 u 2 u 3 u 4 u   1 u 2 u 3 u 4 u   1 u 2 u 3 u 4 u

   Bm      Bm/A      F#m               G       A         D       D/C#
e |-----------------|-----------------|-----------------|-----------------|
B |-----3-------3---|---------2-------|-----3-------2---|-----3-------3---|
G |---4---4---4---4-|-----2-------2---|---0---0---2---2-|---2---2---2---2-|
D |-----------------|---4---4---4---4-|-----------------|-0---------------|
A |-2-------0-------|-----------------|---------0-------|---------4-------|
E |-----------------|-2---------------|-3---------------|-----------------|
   1 u 2 u 3 u 4 u   1 u 2 u 3 u 4 u   1 u 2 u 3 u 4 u   1 u 2 u 3 u 4 u

   Bm7     D         F#m               G       A         D   D4  D
e |-----------------|-----------------|-----------------|-----3---2-------|
B |-----3-------3---|---------2-------|-----3-------2---|-----3---3-------|
G |---2---2---2---2-|-----2-------2---|---0---0---2---2-|---2-------------|
D |-----------------|---4---4---4---4-|-----------------|-0---------------|
A |-2-------0-------|-----------------|---------0-------|-----------0-2-4-|
E |-----------------|-2---------------|-3---------------|-----------------|
   1 u 2 u 3 u 4 u   1 u 2 u 3 u 4 u   1 u 2 u 3 u 4 u   1 u 2 u 3 u 4 u

Verse:

 D       D/C#      Bm7  D/A     G         D/F#     Em   A
You may train the eagle     To stoop down to your fist
 D        D/C#       Bm7  D/A     G       D/F#   Em   A
Feed him cheese and bagels   And send him to the east

Chorus:

 G         D/F#   Em               A  A/G  D/F#
The dragon beast, he may move her  To give over her prey
Bm   Bm/A          F#m         G        A      D D/C# Bm7 D/A F#m G A D D4 D
But you'll never stop a lover  He will find a way


Russia may teach her children  To suppress and subdue
Philosophise their freedom   And keep from them what is true-ue-ue-ue-ue

Shake a hammer and your sickle  The individual to slay
But you'll never stop a lover  He will find a way

You both dream an empire  Of planets up on high
Searching for the God power  With stardust in your eye

The milky moon, he may wander  From golden night to silver day
But you'll never stop a lover  He will find a way
notes by Macerror